X
تبلیغات
پیکوفایل
رایتل

نت هایی برای گیتار

به من نگو دوست دارم داریوش

 نت ها براساس شماره فرت های گیتار است 

دریافت فایل MID 

http://www.mediafire.com/?o6ebsvsmevqbnld


                   
Melody_Guitar
                                                    
E||-----15-15--13--13--11--|-----15-15--13--13--11--|
B||------------------------|------------------------|
G||------------------------|------------------------|
D||------------------------|------------------------|
A||------------------------|------------------------|
E||------------------------|------------------------|


                                                   
-----15-15--13--13--11--|--11-13--11-9--13--11--9--|
------------------------|--------------------------|
------------------------|--------------------------|
------------------------|--------------------------|
------------------------|--------------------------|
------------------------|--------------------------|


                                                  
--8---15-15--13--13--11--|-----15-15--13--13--11--|
-------------------------|------------------------|
-------------------------|------------------------|
-------------------------|------------------------|
-------------------------|------------------------|
-------------------------|------------------------|


                                                   
-----15-15--13--13--11--|--11-13--11-9--13--11--9--|
------------------------|--------------------------|
------------------------|--------------------------|
------------------------|--------------------------|
------------------------|--------------------------|
------------------------|--------------------------|


                                                        
--8---16-16--16--16--16--|--16-16-15-16-18--16-15-13----|
-------------------------|------------------------------|
-------------------------|------------------------------|
-------------------------|------------------------------|
-------------------------|------------------------------|
-------------------------|------------------------------|


                                                                  
------------11--13----|--11--9----8------|-----16-16--16--16--16--|
-----13-14------------|------------------|------------------------|
----------------------|------------------|------------------------|
----------------------|------------------|------------------------|
----------------------|------------------|------------------------|
----------------------|------------------|------------------------|


                                                     
--16-16-15-16-18--16-15-13----|------------11--13----|
------------------------------|-----13-14------------|
------------------------------|----------------------|
------------------------------|----------------------|
------------------------------|----------------------|
------------------------------|----------------------|


                                                         
--11--9----8------|-----------------|-------------------|
------------------|-----------------|--------------------|
------------------|-----------------|--------------------|
------------------|-----------------|--------------------|
------------------|---------------|----------------------|
------------------|-----------------|--------------------|

mmmmmm mmmm Untitled Document